mikanhannille

My idle plot on a vague anxiety

Aitai – SCANDAL bass tab

[COPY & PASTE TO NOTEPAD FOR BETTER VIEW]

Intro:
|----------------------------------------|
|----------------------------------------|
|--1/9\1--4(x7)-6(x7)-------------6(x7)--|
|---------------------4(x7)-1(x4)--------|

|---------------------------|
|---------------------------|
|--4(x7)-6(x7)-4(x7)-6(x7)--|
|---------------------------|


Verse I:

[Pause]

|-------------------------------------------------|
|-------------------------------------------------|
|------------------3(x7)-8(x7)-6(x7)-4(x7)-6(x7)--|
|--1/4-4(x8)-3(x7)--------------------------------|

|--------------------------------------------------------------------|
|--------------------------------------------------------------------|
|--3(x4?)-3-1-3-3-4(x4)-3-3-3-1-1(x8?)-3(x4?)-4-4-3-3-1-1-0-0-6-6-8--|
|--------------------------------------------------------------------|


Chorus:

|-------------------------------------------|
|--------6---------8------------------------|
|--4(x7)---4-6(x7)---6-------6---------6----|
|-----------------------4(x7)--4--1(x7)--1--|

|-------------------------------|
|--------6---------8------------|
|--4(x7)---4-6(x7)---6----------|
|----------------------4(x16?)--|

|------------------------------------------------------------------------|
|--------6---------8-----------------------------------------------------|
|--4(x7)---4-6(x7)---6------------6(x7)-4(x7)-6(x7)-------------11(x6?)--|
|----------------------4(x7)-1(x4)-------------------4(x6?)-4/11---------|



Interlude:

|------6----------------------|
|----4---4-6---4-6-6-6-4-6-4--|
|-----------------------------| x3
|--4---------4----------------|

|------6---------|
|----4---4-6-----|
|----------------|
|--4---------4\--|


Verse II:

|-------------5(x5?)--5-5-------------------------------|
|--1/6-5(x6?)-------------6-6---------------------------|
|------------------------------8(x7)-6(x7)-4(x7)-6(x7)--|
|-------------------------------------------------------|

|------------------------------------------------------------------------------------|
|--6-6-5-5-3-3-1-1-------------------------------------------------------------------|
|------------------4-4-3-3-1-1-0-0---------3-3-1-1-0-0------8(x7)-6(x7)-4(x7)-6(x7)--|
|----------------------------------3-3-3-3-------------3-3---------------------------|

|--------------------------------------------------------------------|
|--------------------------------------------------------------------|
|--3(x4?)-3-1-3-3-4(x4)-3-3-3-1-1(x8?)-3(x4?)-4-4-3-3-1-1-0-0-6-6-8--|
|--------------------------------------------------------------------|


Chorus:


|-------------------------------------------|
|--------6---------8------------------------|
|--4(x7)---4-6(x7)---6-------6---------6----|
|-----------------------4(x7)--4--1(x7)--1--|

|-------------------------------|
|--------6---------8------------|
|--4(x7)---4-6(x7)---6----------|
|----------------------4(x16?)--|

|------------------------------------------------------------------------|
|--------6---------8-----------------------------------------------------|
|--4(x7)---4-6(x7)---6------------6(x7)-4(x7)-6(x7)-------------11(x6?)--|
|----------------------4(x7)-1(x4)-------------------4(x6?)-4/11---------|


Guitar solo:

|--------------------------6----------6-8-6--------------------|
|----------------------6/8---8\---6/8-------6\-6(x7?)-4(x7?)---|
|--6-4/6-4-3-4-6-4/6-4----------6------------------------------|
|--------------------------------------------------------------|


Bridge:

|------------------------------------------------------------------------|
|---------------------------------------4h6-4h6--------------------------|
|----------------7(x16?)-9(x16?)-11~~-------------2/9\1---------6-6-8-8--|
|--0(x8?)-2(x8?)----------------------4-----------------2-2-4-4----------|


Chorus:

|------6-----6-4---------------------------------------|
|--6-6---6-6-----6-4-------6-------8-------------------|
|--------------------4(x7)---6(x7)---------6--------3--|
|------------------------------------4(x7)----1(x7)----|

|--------------------------------------6-----6-4------|
|--------6---------8-----------4-4-6-6---6-6-----6-4--|
|--4(x7)---4-6(x7)---6-----6-6------------------------|
|----------------------4-4----------------------------|

|-------------------------------------------------------------------------|
|--------6---------8------------------------------------------------------|
|--4(x7)---4-6(x7)---6-------------6(x7)-4(x7)-6(x7)-------------11(x6?)--|
|----------------------4(x7)-1(x4)-------------------4(x6?)-4/11----------|


Outro:


|---------------------------|
|---------------------------|
|--4(x8)-6(x8)--------------|
|--------------4(x8)-1(x8)--|

|-----------------------------------|
|-----------------------------------|
|--4(x8)-6(x8)-------------11(x6?)--|
|--------------4(x6?)-4/11----------|

|----------------------------------|
|----------------------------------|
|--4(x8)-6(x8)-------------6(x3?)--|
|--------------4(x8)-1(x4)---------|

|-----------------------------------|
|-----------------------------------|
|--4(x8)-6(x8)-------------11(x6?)--|
|--------------4(x6?)-4/11----------|

 

-mikan
Advertisements

Leave a Reply

Fill in your details below or click an icon to log in:

WordPress.com Logo

You are commenting using your WordPress.com account. Log Out /  Change )

Google+ photo

You are commenting using your Google+ account. Log Out /  Change )

Twitter picture

You are commenting using your Twitter account. Log Out /  Change )

Facebook photo

You are commenting using your Facebook account. Log Out /  Change )

w

Connecting to %s

%d bloggers like this: