mikanhannille

My idle plot on a vague anxiety

Day Dream – SCANDAL cover

Day Dream

[COPY & PASTE TO NOTEPAD]

/- Slide up
* - Octave (Basically the same chord/tone only in a higher tone)

Octaves:
Fsus2* - x8(10)(10)xx - dont know how to put 10 XDD
Gsus2* - x(10)(12)(12)xx
Asus2* - x(12)(14)(14)xx
A#sus2* - x(13)(15)(15)xx

For the chords with "sus2" just do it like this:

Asus2 - x022xx
Bbsus2 - x133xx
Dsus2 - x577xx

and goes on...


Intro Chords:

D Fsus2* A#m Csus2 - x4

Intro Lead: x2
|----------------------------------------------------------|
|----------------------------------------------------------|
|----------------------------------------------------------|
|------7-7/10-7-10-9----9-8---8-----7-7/10-12-10-9----9-8--|
|--5-8---------------10-----8---5-8----------------10------|
|----------------------------------------------------------|


Verse I:

D Fsus2* A#m Csus2 - x4


Chorus I:

G Csus2

Fm Bbsus2

Em Asus2

Dsus2 Fm

G Csus2

Fm Bbsus2

Em Asus2


Intro:

D Fsus*2 A#m Csus2 - x2


Verse II:
[No guitar part, just the bass, but you can play with it]


Chorus I:

G Csus2

Fm Bbsus2

Em Asus2

Dsus2 Fm

G Csus2

Fm Bbsus2

Em Asus2


Interlude:

Dsus2 Fsus2* Gsus2* Asus2*

Dsus2 Fsus2* A#sus2* Asus2*


Solo:
|----------------------------------------------------------|
|----------------------------------------------------------|
|----------------------------------------------------------|
|------7-7/10-7-10-9----9-8---8-----7-7/10-12-10-9----9-8--|
|--5-8---------------10-----8---5-8----------------10------|
|----------------------------------------------------------|

|---------------------------------------------------|
|---------------------------------------------------|
|---------------------------------------------------|
|------7-7/10-7-10-9----9-8---8-----7-7/10-12-8-10--|
|--5-8---------------10-----8---5-8----------------1|
|---------------------------------------------------|


Chorus II:

G Csus2

Fm Bbsus2

Em Asus2

Dsus2 Fm

G Csus2

Fm Bbsus2

Em Asus2

Dsus2 Fsus2*


Chorus III:

|--------------------------------------------------------------------|
|--------------------------------------------------------------------|
|----------------5------------3---------------2----------------------|
|------5-------5-------3----3----------2----2---------------------7--|
|----5-------3-------3----1----------2----0---------5-4-5-7-8-5-8----|
|--3---------------1---------------0---------------------------------|
G     Csus2      Fm   Bbsus2    Em     Asus2


G Csus2

Fm Bbsus2

Em Asus2 (Pause)


Intro:

D Fsus2* A#m Csus2 - x2


Verse I:

D Fsus2* A#m Csus2 - x4


Outro:
Repeat till the end.
|--------------------------------|
|--------------------------------|
|--------------------------------|
|------7-7/10-7-10-9----9-8---8--|
|--5-8---------------10-----8----|
|--------------------------------|

 

 

-mikan
Advertisements

Leave a Reply

Fill in your details below or click an icon to log in:

WordPress.com Logo

You are commenting using your WordPress.com account. Log Out /  Change )

Google+ photo

You are commenting using your Google+ account. Log Out /  Change )

Twitter picture

You are commenting using your Twitter account. Log Out /  Change )

Facebook photo

You are commenting using your Facebook account. Log Out /  Change )

w

Connecting to %s

%d bloggers like this: