mikanhannille

My idle plot on a vague anxiety

EVERYBODY SAY YEAH – SCANDAL bass tab

Intro:

|------------------------------8---8---8---8---7---7---7---7---6---6---6---6--|
|-----------3---3---3---3-----------------------------------------------------|
|--------------------------3/6---6---6---6---5---5---5---5---4---4---4---4----|
|--1/7\1--1---1---1---1-------------------------------------------------------|

|-----------------------8---8---8---8---7---7---7---7---6---6-------|
|----3---3---3---3--------------------------------------------------|
|-------------------3/6---6---6---6---5---5---5---5---4---4----4-4--|
|--1---1---1---1----------------------------------------------------|


Verses I:

|-------------------------------------------------------------------|
|----3---3---3---3---6---6---6---6---8---8---8---8---3---3---3---3--|
|-------------------------------------------------------------------|
|--1---1---1---1---4---4---4---4---6---6---6---6---1---1---1---1----|

|-------------------------------------------------------------------|
|----3---3---3---3---6---6---6---6---8---8---8---8---3---3---3---3--|
|-------------------------------------------------------------------|
|--1---1---1---1---4---4---4---4---6---6---6---6---1---1---1---1----|

|--------------------------------------------------|
|--------------------------------------------------|
|--------------------11-8-11-11-8-6-8-8-6-11-11-8--|
|--4(x8)--6(x8)-6/10-------------------------------|

|-------------------------|
|-------------------------|
|----------------3(x10?)--|
|--4(x8)--6(x8)-----------|


Chorus:

|-------------------------------------7---7---7---7---6---6---8---8--|
|----3---3---3---3---6---6---6---6-----------------------------------|
|-----------------------------------5---5---5---5---4---4---6---6----|
|--1---1---1---1---4---4---4---4-------------------------------------|

|-------------------------------------7---7---7---7---6---6---8---8--|
|----3---3---3---3---6---6---6---6-----------------------------------|
|-----------------------------------5---5---5---5---4---4---6---6----|
|--1---1---1---1---4---4---4---4-------------------------------------|

|---------------------------------------|
|---------------------------------------|
|---------------------------------------|
|--1-1-4-4-4/6-4-6-1---1-1-4-4-4/6-4-6--|


Verse II:

[Pause]

|-------------------------|
|-------------------------|
|--6-8-8--8---------------|
|-----------4-4--4-6-6-6--|

|--------------------------------------------------------------------------15-------------------|
|-----------------------------------------------------------------------------15----------------|
|---------------8-8-6-8--8-8-6---8-8-6-8--8-8-6---------------5/12\5--5/15-------15~~\3--3(x4)--|
|--4(x8)-6(x8)-----------------4----------------4-4(x8)-6(x8)-----------------------------------|


Chorus:

|--------------------------------------------7---7---7---7---6---6---8---8--|
|-----------3---3---3---3---6---6---6---6-----------------------------------|
|------------------------------------------5---5---5---5---4---4---6---6----|
|--1/7\1--1---1---1---1---4---4---4---4-------------------------------------|

|-------------------------------------7---7---7---7---6---6---8---8--|
|----3---3---3---3---6---6---6---6-----------------------------------|
|-----------------------------------5---5---5---5---4---4---6---6----|
|--1---1---1---1---4---4---4---4-------------------------------------|


Guitar solo:

|-----------------------------------------------------6---6---8---8--|
|----3---3---3---3---6---6---6---6---8---8---8---8-------------------|
|---------------------------------------------------4---4---6---6----|
|--1---1---1---1---4---4---4---4---6---6---6---6---------------------|

|-----------------------------------------------------6---6---8---8--|
|----3---3---3---3---6---6---6---6---8---8---8---8-------------------|
|---------------------------------------------------4---4---6---6----|
|--1---1---1---1---4---4---4---4---6---6---6---6---------------------|


Bridge:

|-------------------------------------------------|
|-------------------------------------------------|
|--4(X4)-3(X4)-1(X8)-3-4(X4)-3(X4)-1(X8)-3(X10?)--|
|-------------------------------------------------|


chorus;

|----------------------------------------------8------------------|
|-----------------------------------------8h10---1(x4)------------|
|------------------------------------------------------1-3--------|
|--1-1/6-6-6\1-1-1/6-6 6\1 1-1/6-6-6\1-1-------------------1/7\1--|

|-------------------------------------7---7---7---7---6---6---8---8--|
|----3---3---3---3---6---6---6---6-----------------------------------|
|-----------------------------------5---5---5---5---4---4---6---6----|
|--1---1---1---1---4---4---4---4-------------------------------------|

|-------------------------------------7---7---7---7---6---6---8---8--|
|----3---3---3---3---6---6---6---6-----------------------------------|
|-----------------------------------5---5---5---5---4---4---6---6----|
|--1---1---1---1---4---4---4---4-------------------------------------|

|-----------------------------------------|
|-----------------------------------------|
|-----------------------------------------|
|--1-1-4-4-4/6-4-6-1---1-1-4-4-4/6-4-6-1--|

|-----------------------------------------|
|-----------------------------------------|
|-----------------------------------------|
|--1-1-4-4-4/6-4-6-1---1-1-4-4-4/6-4-6-1--|


Outro:

|-----------------------8---8---8---8---7---7---7---7---6---6---6---6--|
|----3---3---3---3-----------------------------------------------------|
|-------------------3/6---6---6---6---5---5---5---5---4---4---4---4----|
|--1---1---1---1-------------------------------------------------------|

|-----------------------8---8---8---8---7---7---7---7---6---6---6---6---------|
|----3---3---3---3------------------------------------------------------------|
|-------------------3/6---6---6---6---5---5---5---5---4---4---4---4-----------|
|--1---1---1---1-------------------------------------------------------1(x8)--|

 

-mikan
Advertisements

Leave a Reply

Fill in your details below or click an icon to log in:

WordPress.com Logo

You are commenting using your WordPress.com account. Log Out / Change )

Twitter picture

You are commenting using your Twitter account. Log Out / Change )

Facebook photo

You are commenting using your Facebook account. Log Out / Change )

Google+ photo

You are commenting using your Google+ account. Log Out / Change )

Connecting to %s

%d bloggers like this: