mikanhannille

My idle plot on a vague anxiety

Everything OK – Stereopony bass solo & pre-chorus tabs

-------------------------------------------------------
--------14----12-----------14----12----14-14h16-14-12--
--10/12----12----12--10/12----12----12-----------------
-------------------------------------------------------

 

---------------------------------------------------
--------16----14----16----14----16-14-14h16-14-12--
--12/14----14----14----14----14--------------------
---------------------------------------------------



-------------------------------------------------------
--------14----12-----------14----12----14-14h16-14-12--
--10/12----12----12--10/12----12----12-----------------
-------------------------------------------------------

 
------------------------------------------------
--------16----14--------16h17-16-14-12----------
--12/14----14-----12/14----------------14-12-7--
------------------------------------------------

 


 

 

Pre-Chorus I

----------------------------------------------------------
--12----12-11-12-11-9-11-9-7-9-7--------------------------
-----12--------------------------7-7---7-7---7-7---7-7----
-------------------------------------0-----0-----0-----0--

 

 Pre-Chorus II

---------------------------14---------------------------------
--12----12-11-12-11-9-11-9----14------------------------------
-----12--------------------------14\7-7-7---7-7--7-7---7-7----
------------------------------------------0----0-----0-----0--

Advertisements

Leave a Reply

Fill in your details below or click an icon to log in:

WordPress.com Logo

You are commenting using your WordPress.com account. Log Out /  Change )

Google+ photo

You are commenting using your Google+ account. Log Out /  Change )

Twitter picture

You are commenting using your Twitter account. Log Out /  Change )

Facebook photo

You are commenting using your Facebook account. Log Out /  Change )

Connecting to %s

%d bloggers like this: