mikanhannille

My idle plot on a vague anxiety

Houkago H1 – SCANDAL bass tab

[COPY & PASTE TO NOTEPAD FOR BETTER VIEW]

Intro:
|-------------------------------|
|--6---6------------------------|
|--------4-3-4-4/6---6-6/8---8--|
|----4-------------6-------8----|

|-------------------------------|
|--6----------------------------|
|------6-4-3-4-4/6---6-6/8---8--|
|----4-------------6-------8----|

|-------------------------------|
|-------------------------------|
|--3-3-3-4-3-4-4/7---7-7/8---8--|
|------------------5-------6----|

|---------------------------|
|--6------------------------|
|------6-4-3-4-4/6---6------|
|----4-------------6---0-2--|


Verse I:

[Pause]

|-------------------------------1-------------1--------------------------|
|-----------4--4--4-----------1---1---------1---1------------------------|
|--3-4-----4--4--4---3-4--1-4-------4-1-1-4-------4-1-3-1-3-3-4---4-3-1--|
|------2--------------------------------------------------------4--------|


Chorus:
|--------------------------------------------------------------------|
|-------6-6-3-3-------------------------6-6-3-3----------------------|
|--4-4----------4-4-----6-6-3-3-----4-4---------4-4-----6-6-3-3------|
|-------------------4-4---------4-4-----------------4-4---------4-4--|

|-----------------------------------------------------------------|
|------------------------------6-6---------------------------6-6--|
|--4-4-1-1-6-6-7-7-8-8-3-3-6-6-----4---4-4/6---6-----4-4-6-6------|
|------------------------------------4-------6---4-4--------------|

|--------------------------------------------------------------------|
|-------6-6-3-3-------------------------6-6-3-3----------------------|
|--4-4----------4-4-----6-6-3-3-----4-4---------4-4-----6-6-3-3------|
|-------------------4-4---------4-4-----------------4-4---------4-4--|

|----------------------------------------------------|
|------------------------------6-6-------------------|
|--4-4-1-1-6-6-7-7-8-8-3-3-6-6-----4---4-4/6---6--4--|
|------------------------------------4-------6-------|


Intro:
|-------------------------------|
|--6---6------------------------|
|--------4-3-4-4/6---6-6/8---8--|
|----4-------------6-------8----|

|---------------------------|
|--6------------------------|
|------6-4-3-4-4/6---6------|
|----4-------------6---0-2--|


Verse II:

[Pause]

|----6-8-10---6------------|
|--6--------6--------------|
|----------------4-3-------|
|---------------------5-4--|


Guitar solo:
|--------------------------------------------------------------------|
|-------6-6-3-3-------------------------6-6-3-3----------------------|
|--4-4----------4-4-----6-6-3-3-----4-4---------4-4-----6-6-3-3------|
|-------------------4-4---------4-4-----------------4-4---------4-4--|

|-----------------------------------------------------------------|
|------------------------------6-6---------------------------6-6--|
|--4-4-1-1-6-6-7-7-8-8-3-3-6-6-----4---4-4/6---6-----4-4-6-6------|
|------------------------------------4-------6---4-4--------------|


Bridge:

|---------------------------------------------------------------1------------1--------------------------|
|------------------------4-------4----------------------------1--1---------1---1------------------------|
|--3(x7?)-4(x7?)-----2/4-----2/4----3(x7?)-4(x7?)---------1-4------4-1-1-4-------4-1-3-1-3-3-4---4-3-1--|
|----------------2-2-------2-----------------------2(x7?)--------------------------------------4--------|


Chorus:

[Pause]

|--------------------------------------------|
|---------------------------------------6-6--|
|--1/6\1-4-3-8-6-4-[Pause]------4-4-6-6------|
|---------------------------4-4--------------|

|--------------------------------------------------------------------|
|-------6-6-3-3-------------------------6-6-3-3----------------------|
|--4-4----------4-4-----6-6-3-3-----4-4---------4-4-----6-6-3-3------|
|-------------------4-4---------4-4-----------------4-4---------4-4--|

|-----------------------------------------------------------------|
|------------------------------6-6---------------------------6-6--|
|--4-4-1-1-6-6-7-7-8-8-3-3-6-6-----4---4-4/6---6-----4-4-6-6------|
|------------------------------------4-------6---4-4--------------|

|------------------------------------------------------|
|------------------------------6-6-----------11-11-11--|
|--4-4-1-1-6-6-7-7-8-8-3-3-6-6-----4--4-4/11-----------|
|------------------------------------------------------|


Outro:

|-------------------------------|
|--6---6------------------------|
|--------4-3-4-4/6---6-6/8---8--|
|----4-------------6-------8----|

|-------------------------------|
|--6----------------------------|
|------6-4-3-4-4/6---6-6/8---8--|
|----4-------------6-------8----|

|-------------------------------|
|-------------------------------|
|--3-3-3-4-3-4-4/7---7-7/8---8--|
|------------------5-------6----|

|---------------------------------------------------|
|--6-------------------------------------6/8-6-5-6--|
|------6-4-3-4--------------------------------------|
|----4---------3/6-4-3-4-4/6-4-3-4-3/8\3------------|

 

-mikan
Advertisements

Leave a Reply

Fill in your details below or click an icon to log in:

WordPress.com Logo

You are commenting using your WordPress.com account. Log Out /  Change )

Google+ photo

You are commenting using your Google+ account. Log Out /  Change )

Twitter picture

You are commenting using your Twitter account. Log Out /  Change )

Facebook photo

You are commenting using your Facebook account. Log Out /  Change )

Connecting to %s

%d bloggers like this: