mikanhannille

My idle plot on a vague anxiety

Kimi to yoru to namida – SCANDAL

Kimi to yoru to namida

As usual copy and paste to notepad

Chords:

D5 - x577xx
E5 - 0799xx
F5 - x8(10)(10)xx
A5 - x(12)(14)(14)xx
C5 - x355xx
G5 - 355xxx
F/E5 - x7(10)(10)xx

Intro:

D5 E5 F5 A5
(G5 C5 C#5 D5 E5 F5 A5)x2
G5 [Pause]


Verse I:
[Pause]

Gm C5 D5 -x2

Pre Chorus:
C#5 D#5 F5
C#5 D#5 F5 C5

Chorus:
(Gm C5 F5 F/E5 D5 C5
G5 C5 C#5 D5 E5 F5 A5)x2
G5 C5 Fm

Verse II:
G5- [Pause]

G5 C5 D5 -x2


Solo:
(C#5 D#5 F5
C#5 D#5 F5)x2 C5

Chorus:
(Gm C5 F5 F/E5 D5 C5
Gm C5 C#5 D5 E5 F5 A5)x4
Gm C5

Outro:
(Gm C5 C#5 D5 E5 F5 A5)x3
G5 C5 Fm




Intro x2:
|---------------------------------------8-------13-15-15/17-13--|
|--10-10b11-8-6-8/10-6---------------10---10/15-----------------|
|---------------------------7-10--10----------------------------|
|----------------------7-10-------------------------------------|
|---------------------------------------------------------------|
|---------------------------------------------------------------|

Solo:
|------------------------------------------------------------------------------
|--------------------------------------10b11b11--------------------------------
|--6p5-6-8-10-10/12--14-14-10-10----------------------10-11/13-12-12-13-12-----
|--------------------------------10-10-----------9/11----------------------13--
|------------------------------------------------------------------------------
|------------------------------------------------------------------------------

------------------------13-13-11-13-11-13-13/18------------16-16-16-15-13-18-18-16-18-17-17-20-20--|
--10-11-10-8-8----------------11-----------------10------------------------------------------------|
---------------10-10--------------------------------10-10--13-13-13-12-10-15-15-13-15-14-14-17-17--|
---------------------------------------------------------------------------------------------------|
---------------------------------------------------------------------------------------------------|
---------------------------------------------------------------------------------------------------|

Outro:
|---------------------------------------8-------13-15-15/17-13--|
|--10-10b11-8-6-8/10-6---------------10---10/15-----------------|
|---------------------------7-10--10----------------------------|
|----------------------7-10-------------------------------------|
|---------------------------------------------------------------|
|---------------------------------------------------------------|

|-------------------------------------------------------|
|--10-10b11-8-6-8/10-6---5-6-5-6-5-6-10-10-11-10-11-10--|
|-------------------------------------------------------|
|-------------------------------------------------------|
|-------------------------------------------------------|
|-------------------------------------------------------|

|---------------------------------------8-------13-15-15/17-13--|
|--10-10b11-8-6-8/10-6---------------10---10/15-----------------|
|---------------------------7-10--10----------------------------|
|----------------------7-10-------------------------------------|
|---------------------------------------------------------------|
|---------------------------------------------------------------|

|-----------------------------------------|
|--10-10b11-8-6-8/10-6---5-6-5-6-5-6-8-6--|
|-----------------------------------------|
|-----------------------------------------|
|-----------------------------------------|
|-----------------------------------------|

 

-mikan
Advertisements

Leave a Reply

Fill in your details below or click an icon to log in:

WordPress.com Logo

You are commenting using your WordPress.com account. Log Out / Change )

Twitter picture

You are commenting using your Twitter account. Log Out / Change )

Facebook photo

You are commenting using your Facebook account. Log Out / Change )

Google+ photo

You are commenting using your Google+ account. Log Out / Change )

Connecting to %s

%d bloggers like this: