mikanhannille

My idle plot on a vague anxiety

Koi no Kajitsu – SCANDAL chords and tab

Koi no Kajitsu Chords and Tab

Intro/Outro:
E-B-A-B
E-B-A-C#-B
E-B-A-B
Ab-A(x4 I think?) - B

Verse:
E-B-A-E (Repeat as needed)

After Verse:
E-B-A-B(x2)

Verse:
E-B-A-E (Repeat as needed)

Pre-Chorus:
F#m-G#m-A-B

Chorus:
E-F#m-G#m-A-B

Solo(Or Bridge?)
C#m-D#m-E-F#m


Scale-up tab:

|---------------------|
|---------------------|
|---------------------|
|--------------6-7-9--|
|-------6-7-9---------|
|--7-9----------------|

or

|---------------------|
|---------------------|
|--------------1-2-4--|
|-------1-2-4---------|
|--2-4----------------|
|---------------------|

Sequence:
Intro
Verse
After Verse
Verse
Pre-Chorus
Chorus
Intro
Verse
Pre-Chorus
Chorus
Solo/Bridge?
Chorus
Chorus
Outro

 

-mikan
Advertisements

Leave a Reply

Fill in your details below or click an icon to log in:

WordPress.com Logo

You are commenting using your WordPress.com account. Log Out / Change )

Twitter picture

You are commenting using your Twitter account. Log Out / Change )

Facebook photo

You are commenting using your Facebook account. Log Out / Change )

Google+ photo

You are commenting using your Google+ account. Log Out / Change )

Connecting to %s

%d bloggers like this: