mikanhannille

My idle plot on a vague anxiety

Koshit Tan Tan – SCANDAL

Koshi Tan Tan

Intro:

|----------------------------------------------|
|--------------------------5-----5-------------|
|--7---5---5h7-7---5---5h7-5h7p5-5-7-----7--5--|
|--7-7---7-----7-7---7---------------7-5-7-7---|
|----------------------------------------------|
|----------------------------------------------|

Dsus2-Fsus2
Dsus2-Fsus2
Csus2-Dsus2-Fsus2
Csus2-Am-Csus2
Csus2-Dsus2-Fsus2
Csus2-Dsus2-Fsus2
Csus2-Dsus2-Fsus2
Csus2-Am-Csus2
Csus2

|----------------|
|----------------|
|----------------|
|--------3-3h5-3-|
|--5-3-5---------|
|----------------|


Verse:

Dsus2-Csus2-Dsus2
Dsus2-Csus2-Dsus2
Csus2-Am-Csus2
Dsus2-Csus2

VerseI
|----------------|
|----------------|
|----------------|
|--------3-3h5-3-|
|--5-3-5---------|
|----------------|

VerseII
|----------------------|
|----------------------|
|----------------------|
|--------3-3h5-3-------|
|--5-3-5---------5-3~--|
|----------------------|

Pre Chorus:

Gm-A#m-Cm-A#m-Gm
Dsus2-F5~G5~F5~G5-Dsus2
Gm-A#m-Cm-A#m-Gm-Am

|----------------10--|
|--------8-10-12-10--|
|--9-7-9-------------|
|--------------------|
|--------------------|
|--------------------|


Chorus:

Esus2-Dsus2-Esus2
Dsus2-Esus2-Dsus2-Esus2
Dsus2-Esus2-Dsus2-Esus2
Dsus2-Esus2 [Pause]

Esus2-Dsus2-Esus2
Dsus2-Esus2-Dsus2-Esus2
Dsus2-Esus2-Dsus2-Esus2
Dsus2-Esus2-Dsus2-Esus2
Dsus2-Bsus2


Intro
Verse
Verse
Pre Chorus
Chorus
Intro
Verse
Pre Chorus
Chorus
[Rap or whatever part]
Intro
Pre Chorus
Chorus

-mikan
Advertisements

Leave a Reply

Fill in your details below or click an icon to log in:

WordPress.com Logo

You are commenting using your WordPress.com account. Log Out /  Change )

Google+ photo

You are commenting using your Google+ account. Log Out /  Change )

Twitter picture

You are commenting using your Twitter account. Log Out /  Change )

Facebook photo

You are commenting using your Facebook account. Log Out /  Change )

Connecting to %s

%d bloggers like this: