mikanhannille

My idle plot on a vague anxiety

Little Braver – Girls Dead Monster chords and tabs

Paste in notepad for better view.

Little Braver - Girls Dead Monster

Intro:

|--12-------12--------12-------12--------12-------12--------12-------14----16--|
|-----10-10----12-10-----10-10----12-10-----10-10----12-10-----10-10----12-----|
|------------------------------------------------------------------------------|
|------------------------------------------------------------------------------|
|------------------------------------------------------------------------------|
|------------------------------------------------------------------------------|

|--12-------12--------12-------12--------12-------12-------12-12/16-16-16--|
|-----10-10----12-10-----10-10----12-10-----10-10----12-10-----------------|
|--------------------------------------------------------------------------|
|--------------------------------------------------------------------------|
|--------------------------------------------------------------------------|
|--------------------------------------------------------------------------|

Verse I:
F# D C# D
F# D E F#
F# D E A D E

Chorus:
A E F# D C# D E
A E F# D C# D E
A

Verse II:
F# D C# D
F# D E F#
F# D E A D E

Chorus:
A E F# D C# D E
A E F# D C# D E
A

Bridge:
F# A B
F# A E
F G A
F G A

Solo:

|--------10---------------------------------------------------12-12/14-12h14-12--|
|--12-12----14-12-12b13-12b13-10------10-12b13 12b13-10h12-10--------------------|
|--------------------------------9/11--------------------------------------------|
|--------------------------------------------------------------------------------|
|--------------------------------------------------------------------------------|
|--------------------------------------------------------------------------------|

|--12-14-19~-17-19-21~-19-17-17-17---------------------------------------------|
|----------------------------------19-17----------------12-14b15-12h14-12-10~--|
|----------------------------------------19-16-14-12h14------------------------|
|------------------------------------------------------------------------------|
|------------------------------------------------------------------------------|
|------------------------------------------------------------------------------|


[Pause]

Chorus:
A E F# D C# D E
A E F# D C# D E
A

^Repeat 3x do plucking the 3rd time

 

-mikan
Advertisements

Leave a Reply

Fill in your details below or click an icon to log in:

WordPress.com Logo

You are commenting using your WordPress.com account. Log Out /  Change )

Google+ photo

You are commenting using your Google+ account. Log Out /  Change )

Twitter picture

You are commenting using your Twitter account. Log Out /  Change )

Facebook photo

You are commenting using your Facebook account. Log Out /  Change )

Connecting to %s

%d bloggers like this: