mikanhannille

My idle plot on a vague anxiety

My Soul! Your Beats! – Girls Dead Monster chords and tabs

Paste this in notepad for better view.

My Soul! Your Beats - Girls Dead Monster

Intro:

|------------------------------------------------------------------------|
|-------------------------------------------------10-11------------------|
|--9b11-9-7--------9b11-9-7-------8/9--9b11-9-7-9--------9b11-9-7--------|
|-----------7/9-7-----------7/9-7---------------------------------7-7/9--|
|------------------------------------------------------------------------|
|------------------------------------------------------------------------|


Verse I:
G D A
B D G
G E F#m B A
G D A
B D G
G E F#m D A
G G#m A C

Chorus:
A C#
A B
C# A G#
C# A G#
F#m B C#

Verse II:
G D A
B D G
G E F#m B A
G D A
B D G
G E F#m D A
G G#m A C

Chorus:
A C#
A B
C# A G#
C# A G#
F#m B C#

[Solo Voice]


Bridge:
B C# D E
A G#m A B C# D

Chorus:(Half Step Higher)
A# D
A# C
A# D
A# C
D A# A
D A# A
G C D
G A A# C

Outro:

|------------------------------------------------------------------------------------------------|
|-------------------------------------------------------------------13-15------------------------|
|--12b14-11-10-----------12b14-11-10----------11/12--12b14-12-10-12--------12b14-12-10-----------|
|--------------10/12-10--------------10/12-10------------------------------------------10-10/12--|
|------------------------------------------------------------------------------------------------|
|------------------------------------------------------------------------------------------------|

 

-mikan
Advertisements

One response to “My Soul! Your Beats! – Girls Dead Monster chords and tabs

  1. cess May 29, 2011 at 11:10 am

    whew. ang hirap. ung mga pinkaeaw qong chords andito D:

Leave a Reply

Fill in your details below or click an icon to log in:

WordPress.com Logo

You are commenting using your WordPress.com account. Log Out /  Change )

Google+ photo

You are commenting using your Google+ account. Log Out /  Change )

Twitter picture

You are commenting using your Twitter account. Log Out /  Change )

Facebook photo

You are commenting using your Facebook account. Log Out /  Change )

w

Connecting to %s

%d bloggers like this: