mikanhannille

My idle plot on a vague anxiety

Namida No Regret – SCANDAL bass tab

Paste to notepad for better view.


/ - slide up
\ - slide down
~ - vibrato

Intro:
|-----------------------------------------------------------------------------------|
|-----------------------------------------------------------------------------------|
|--------------------2(x4)-3-3-5-5-----------------2(x4)-0(x6)-2-3-5-5-5-5-7-9-5/3--|
|--3/15\3-3-2-0(x4)------------------3-3-3-2-0(x4)----------------------------------|


Verse I:
|------------------------------------------------------------------------------------|
|------------------------------------------------------------0-------------------9~--|
|--3----5--7------5-------2-3-----5--7-------------2-3--5-2-----0-2-2-3(x4)-2-/8-----|
|--------------5-----3-3----------------5-5--7-7------------0------------------------|


Chorus:
|---------------------------------------------------|
|---------------------------------------------------|
|--3(x4)-5(x4)-2(x4)-------0(x4)-5(x4)--------------|
|--------------------0(x4)-------------3(x4)-1(x4)--|

|---------------------------------------------|-------------------------------------------------|
|---------------------------------------------|-------------------------------------------------|
|--3(x4)-5(x4)-2(x4)-------0(x4)-5(x4)--------|----------------2(x4)-0(x7)-2-3-5(x5)-5-7-9-5/1--|
|--------------------0(x4)-------------3(x4)--|--3-3-3-2-0(x4)----------------------------------|


Verse II:
(Instrumental)
|--------11-12~-----------------|------------------------|
|--11/12--------10/12-10-9------|------------------------|
|--------------------------10~--|--3--3-5--7-------------|
|-------------------------------|------------5--5--7--7--|


Chorus:
|---------------------------------------------------|
|---------------------------------------------------|
|--3(x4)-5(x4)-2(x4)-------0(x4)-5(x4)--------------|
|--------------------0(x4)-------------3(x4)-1(x4)--|

|-----------------------------------------------------|
|-----------------------------------------------------|
|--3(x4)-5(x4)-2(x4)-------0(x4)-5(x4)-----------10~--|
|--------------------0(x4)-------------3(x2)-3\9------|


Interlude(?) [Mini Solo? LOL]
|--------------------------------------------------|
|------------------------0-2(x4)-------------------|
|------3(x4)-5(x4)-2(x4)---------0(x7?)-2-3-5-5-5--|
|--3-2---------------------------------------------|


Bridge:
|------------------------------------------------------------------------------------------------------|
|------------------------------------------------------------------------------------------------------|
|--3-5-6-6-6-----3/8--5\-----1-3-3/5-5-5-----1-----------2-6-6-----3/8-5\-----1-3-3/5-5-5-------2/14~--|
|------------3-6---------1-3-------------1-3---3-3-3-3-6-------3-6--------1-3-------------5/15\--------|


Chorus:
|-----------------------------------------------------------------|
|--------------------------------------------------------5--------|
|--0-5---2-3(x4)-5(x4)-2(x4)-------0(x4)-5(x4)-------5/6---8(x4)--|
|------3---------------------0(x4)-------------3(x4)--------------|

|---------------------------------------------------|
|---------------------------------------------------|
|--3(x4)-5(x3)--2-5-6-7-----------5(x4)--------10~--|
|-----------------------0--5(x4)-------3-3/10-------|


Outro:
|----------------------------------------------------------------------------------------------------------------|
|---------------------------------------------------------------------0-1-2--------------------------------------|
|--2-3(x4)-5(x4)-2(x4)-------2-3(x4)-5(x4)------2-3(x4)-5(x4)-0-1-2-4-------------3(x4)-5(x4)------------10------|
|----------------------0(x4)--------------3(x7)-----------------------------0-0-0-------------3(3x)-3/10----3\1--|

 

-mikan
Advertisements

Leave a Reply

Fill in your details below or click an icon to log in:

WordPress.com Logo

You are commenting using your WordPress.com account. Log Out /  Change )

Google+ photo

You are commenting using your Google+ account. Log Out /  Change )

Twitter picture

You are commenting using your Twitter account. Log Out /  Change )

Facebook photo

You are commenting using your Facebook account. Log Out /  Change )

w

Connecting to %s

%d bloggers like this: