mikanhannille

My idle plot on a vague anxiety

Never Look Back – Stereopony chords and tabs

Intro I:

Guitar I

|--0--0-0-0-0-0--0--0-0-0-0-0--|
|------------------------------|
|------------------------------|
|------------------------------|
|------------------------------|
|------------------------------|

then switch to chords

Guitar II
|----4-7-4-----4-7-4-----4-5----|
|--5-------5-5-------5-5-----5--|
|-------------------------------|
|-------------------------------|
|-------------------------------|
|-------------------------------|


Intro II:
|-(4)-----4-7-4-----4-7-4----|
|-----5-5-------5-5-------5--|
|----------------------------|
|----------------------------|
|----------------------------|
|----------------------------|Repeat as needed but dont include (4) anymore

Intro
B-C#-A

Verses
B-C#
A-B-C#
A-B-c#
A-B-C#
A(Hold)

Chorus
C#-E-A-B(4x)

Intro
B-C#-A(2x)

Verses
B-C#
A-B-C#
A-B-c#
A-B-C#
A(Hold)

Chorus
C#-E-A-B(4x)

Bridge
C#(Hold)
C#-A-B
G#-A-B
C#-A-B-B-B-B(Pause)

Chorus
A-B
C#-E-A-B(3x)

Outro
B-C#-A(2x)

 

-mikan
Advertisements

Leave a Reply

Fill in your details below or click an icon to log in:

WordPress.com Logo

You are commenting using your WordPress.com account. Log Out /  Change )

Google+ photo

You are commenting using your Google+ account. Log Out /  Change )

Twitter picture

You are commenting using your Twitter account. Log Out /  Change )

Facebook photo

You are commenting using your Facebook account. Log Out /  Change )

Connecting to %s

%d bloggers like this: