mikanhannille

My idle plot on a vague anxiety

Ring!Ring!Ring – SCANDAL bass tabs

Intro:
|--------------------------------------------|
|--------------------------------------------|
|------6(4x)-----6(5x)-----6(4x)-------------|
|--1/6-------1/6-------1/6----------3/6(6x)--|


Verse I and II
|----------------------------------------------------------------------|
|----------------------------------------------------------------------|
|--6-6---------------6-6------------------3-3-6-6-8-8-9-9-8-8-6-6-3-3--|
|-------8-8-6-6-8-8------8-8-6-6-8-8--4-4------------------------------|


|------------------------------------|----------------------------------------------------------------|-----------------------|
|------------------------------------|----------------------------------------------------------------|-----------------------|
|--6-6--------------6-6--------------|------------8-----------------------------8---------------------|--4/6-6-4h6------------|
|------8-8-6-6-8-8------8-8-6-6-8-8--|--6-6-6-6-6---6--4-4-4-4-4-4-4--6-6-6-6-6---6--4-4-4-4-4-4-4--|------------3/6-6(7x)--|


Pre-chorus:
|------------------------------------------------------|
|------------------------------------------------------|
|------------------3/8-6-3-----------------------------|
|--6/8-6h8-6h8-6-1---------1--1-3-3-4-4-4-4-6-6-6-6-6--|


Chorus:
|----------------------------------------------------------------------------------|
|----------------------------------------------------------------------------------|
|--6-8-8-10-10-11-11--6-8-8-10-10-11-11----10----------6/11---10-------------------|
|----------------------------------------8---8-6-6-6-4------8---8-6-6-6-4-4-4-6-6--|

|----------------------------------------|
|----------------------------------------|
|--6-8-8-10-10-11-11--6-8-8-10-10-11-11--| x3
|----------------------------------------|

|---------------|
|---------------|
|--6-8-8--------|
|--------6(7x)--|


Intro:
|--------------------------------------------|
|--------------------------------------------|
|------6(4x)-----6(5x)-----6(4x)-------------|
|--1/6-------1/6-------1/6----------3/6(6x)--|


Verse III:
|------------------------------------------------------------------------------------------------------------------------|
|---------------------------------------------------------8--------6---------8---------6---------------------------------|
|--6-------6----------3-6-8-9-6-3--6-------6----------6/8--6---4/6--6----6/8---6---4/6---6---------6------6----------|
|----8-6-8---8-6-8--4----------------8-6-8---8-6-8--6--------4--------6-6--------4---------4-4-4-4------3h5-----6-6-6-6--|


Guitar solo:
|----------------------------------------------------------------------|
|----------------------------------------------------------------------|
|--6-6---------------6-6------------------3-3-6-6-8-8-9-9-8-8-6-6-3-3--|
|-------8-8-6-6-8-8------8-8-6-6-8-8--4-4------------------------------|


|------------------------------------|----------------------------------------------------------------|-----------------------|
|------------------------------------|----------------------------------------------------------------|-----------------------|
|--6-6--------------6-6--------------|------------8-----------------------------8---------------------|--4/6-6-4h6------------|
|------8-8-6-6-8-8------8-8-6-6-8-8--|--6-6-6-6-6---6--4-4-4-4-4-4-4--6-6-6-6-6---6--4-4-4-4-4-4-4--|------------3/6-6(7x)--|


Pre-chorus:
|------------------------------------------------------|
|------------------------------------------------------|
|------------------3/8-6-3-----------------------------|
|--6/8-6h8-6h8-6-1---------1--1-3-3-4-4-4-4-6-6-6-6-6--|


Chorus:
|----------------------------------------------------------------------------------|
|----------------------------------------------------------------------------------|
|--6-8-8-10-10-11-11--6-8-8-10-10-11-11----10----------6/11---10-------------------|
|----------------------------------------8---8-6-6-6-4------8---8-6-6-6-4-4-4-6-6--|

|----------------------------------------|
|----------------------------------------|
|--6-8-8-10-10-11-11--6-8-8-10-10-11-11--| x3
|----------------------------------------|

|---------------|
|---------------|
|--6-8-8--------|
|--------6(7x)--|

|----------------------------------------|
|----------------------------------------|
|--6-8-8-10-10-11-11--6-8-8-10-10-11-11--| x3
|----------------------------------------|

|---------------|
|---------------|
|--6-8-8--------|
|--------6(7x)--|

Outro:
|--------------------------------------------|
|--------------------------------------------|
|------6(4x)-----6(5x)-----6(4x)-------------|
|--1/6-------1/6-------1/6----------3/6(6x)--|

|------------------------------------------------------------------------------------|
|------------------------------------------------------------------------------------|
|------6(4x)-----6(5x)-----6(4x)------------6-(Fill in some scalings if you like)-6--|
|--1/6-------1/6-------1/6----------3/6(6x)------------------------------------------|

-mikan
Advertisements

Leave a Reply

Fill in your details below or click an icon to log in:

WordPress.com Logo

You are commenting using your WordPress.com account. Log Out /  Change )

Google+ photo

You are commenting using your Google+ account. Log Out /  Change )

Twitter picture

You are commenting using your Twitter account. Log Out /  Change )

Facebook photo

You are commenting using your Facebook account. Log Out /  Change )

w

Connecting to %s

%d bloggers like this: