mikanhannille

My idle plot on a vague anxiety

Ring!Ring!Ring! – SCANDAL chords and tabs

Intro/Outro:

D#5/Eb5 - D#5/Eb5
D#5/Eb5 - A#/Bb

Verse:

D#5/Eb5 - G#/Ab
D#5/Eb5 - A#/Bb - A - G#/Ab
A#/Bb - A - G#/Ab
D#5/Eb5 - A#/Bb

Pre-Chorus:

C - F - F - G#/Ab - A#/Bb

E|-----------------------------|
B|-----------------------------|
G|--7h8p7---7h8p7--------------|
D|--------8-------8-6-4--------|
A|----------------------6-4-6--|
E|-----------------------------|




Chorus:

Part1
D#5/Eb5 - F5 - G5 - G#5
D#5/Eb5 - F5 - G5 - G#5
C5 - A#/Bb - G#/Ab
C5 - A#/Bb - G#/Ab - A#/Bb

Part2
D#5/Eb5 - F5 - G5 - G#5
D#5/Eb5 - F5 - G5 - G#5
D#5/Eb5 - F5 - G5 - G#5
D#5/Eb5 - F5 - A#/Bb


Solo:
E   |---------------------------------------------------------------------------------------------------------------------------------------------------------------------------|
B   |--7b-7b-7b-7h8p7-7h8p7----6b-6b-6b-6h7p6-6h7p6---------------7b-7b-7b-7h8p7-7h8p7------------------------------------------------------------------------------------------|
G   |-----------------------8-----------------------8------8--------------------------8-----------------------------------------------------------------------------------------|
D   |-------------------------------------------------8h10---10----------------------------------6-8-6--6-6-6-6-----------------6-8-6--6-6-6-6------6/8-8-8-8-8--6h8p6----------|
A   |-----------------------------------------------------------------------------------6-----6-9-----------------9-6---6-----6-9----------------9-6---------------------6-4-6--|
E   |-------------------------------------------------------------------------------------6-8-----------------------------6-8---------------------------------------------------|



Final lick:
E|-----------------------------|
B|-----------------------------|
G|--8-8-6-6-5-5----------------|
D|--------------6/8-6-8-6\4----|
A|--------------------------6--|
E|-----------------------------|



Sequence:

Intro
Verse
Verse
Pre-Chorus
Full Chorus(Part1 & 2)
Intro
Verse
Verse(Solo)
Pre-Chorus
Full Chorus(Part1 & 2)
Chorus Part 2
Outro
Outro
Final Lick

 

-mikan
Advertisements

Leave a Reply

Fill in your details below or click an icon to log in:

WordPress.com Logo

You are commenting using your WordPress.com account. Log Out /  Change )

Google+ photo

You are commenting using your Google+ account. Log Out /  Change )

Twitter picture

You are commenting using your Twitter account. Log Out /  Change )

Facebook photo

You are commenting using your Facebook account. Log Out /  Change )

w

Connecting to %s

%d bloggers like this: