mikanhannille

My idle plot on a vague anxiety

Scandal Baby Bass Tabs

Scandal Baby
[COPY & PASTE TO NOTEPAD]

/ - Slide up
\ - Slide down

Intro:

|-------------------------------------|
|-------------------------------------|
|----------3(x4)-5(x4)\---------------|
|--3/10\3---------------0(x4)-3/10\3--|


|----5---5----7---7----9---9----------5---5---7---7----------------|
|-----------------------------7--7--------------------5---5--------|
|--3---3----5---5----7---7----------3---3---5---5------------------|
|---------------------------5--5--------------------3---3---5-5-5--|

|----5---5---4---8---9---9------------5---5---7---7-------------------|
|----------------------------7---7------------------------------------|
|--3---3---2---6---7---7------------3---3---5---5---7(x3) 7/10-7-5-7--|
|--------------------------5---5--------------------------------------|


Verse:

|-----------------------------------------------------|
|-----------------------------------------------------|
|--3(x4)-5(x4)-7(x4)--------3(x4)-5(x4)---------------|
|--------------------5(x4)--------------3-2-3-3--5-5--|

|------------------------------------------------------------|
|------------------------7------------------------4-5---4-2--|
|--3(x4)-5(x4)-7(x4)---7---7--3-2-3-3/5-3-3-3---2-----2------|
|--------------------5------------------------3--------------|

|--------------------------------------------------------|
|------------------------7-------------------------------|
|--3(x4)-5(x4)-7(x4)---7---7--3(x4)-5(x4)----------------|
|--------------------5--------------------3-2-3-3---5-5--|

|-------------------------------------------------------------|
|--------------------------7----------------------------------|
|--3(x4)-2-2-6-6-7(x4)---7---7--3(x4)-5(x4)-7(x3)-7/10-7-5-7--|
|----------------------5--------------------------------------|


Pre Chorus:

|-----------------------------------|
|--------7-7-7/9--------------------|
|--0-2/6---------7\2-2-3-3-5--------|
|----------------------------3-3-3--|

|---------------------------------------------------------------|
|--------7-7-7/9 7/9--------------------------------------------|
|--0-2/6-------------7\2-2-3-3-5-5-3-3-5-5-3--------------------|
|--------------------------------------------3/7-8-7-8-7-3/9\3--|


Chorus:

|----5---5----7---7----9---9----------5---5---7---7----------------|
|-----------------------------7--7--------------------5---5--------|
|--3---3----5---5----7---7----------3---3---5---5------------------|
|---------------------------5--5--------------------3---3---5-5-5--|

|----5---5---4---8---9---9------------5---5---7---7---9---9---9---9--|
|----------------------------7---7-----------------------------------|
|--3---3---2---6---7---7------------3---3---5---5---7---7---7---7----|
|--------------------------5---5-------------------------------------|

|----5---5----7---7----9---9----------5---5---7---7----------------|
|-----------------------------7--7--------------------5---5--------|
|--3---3----5---5----7---7----------3---3---5---5------------------|
|---------------------------5--5--------------------3---3---5-5-5--|

|----5---5---4---8---9---9------------5---5---7---7---9---9---9---9------------------------------|
|----------------------------7---7---------------------------------------------------------------|
|--3---3---2---6---7---7------------3---3---5---5---7---7---7---7---7/10-7-5-7--3-5\-------10\1--|
|--------------------------5---5-----------------------------------------------------0(x4)-------|

Intro:

|----5---5----7---7----9---9----------5---5---7---7----------------|
|-----------------------------7--7--------------------5---5--------|
|--3---3----5---5----7---7----------3---3---5---5------------------|
|---------------------------5--5--------------------3---3---5-5-5--|

|----5---5---4---8---9---9------------5---5---7---7-------------------|
|----------------------------7---7------------------------------------|
|--3---3---2---6---7---7------------3---3---5---5---7(x3) 7/10-7-5-7--|
|--------------------------5---5--------------------------------------|


Verse:

[Pause]

|--------------------------------------------------------|
|------------------------7-------------------------------|
|--3(x4)-5(x4)-7(x4)---7---7--3(x4)-5(x4)----------------|
|--------------------5--------------------3-2-3-3---5-5--|

|---------------------------------------------------------------|
|--------------------------7------------------------------------|
|--3(x4)-2-2-6-6-7(x4)---7---7--3-2-3-3-5(x4)-7(x3)-7/10-7-5-7--|
|----------------------5----------------------------------------|


Pre Chorus:

|-----------------------------------|
|--------7-7-7/9--------------------|
|--0-2/6---------7\2-2-3-3-5--------|
|----------------------------3-3-3--|

|---------------------------------------------------------------|
|--------7-7-7/9 7/9--------------------------------------------|
|--0-2/6-------------7\2-2-3-3-5-5-3-3-5-5-3--------------------|
|--------------------------------------------3/7-8-7-8-7-3/9\3--|


Guitar Solo: [Do the chorus riff]

|----5---5----7---7----9---9----------5---5---7---7----------------|
|-----------------------------7--7--------------------5---5--------|
|--3---3----5---5----7---7----------3---3---5---5------------------|
|---------------------------5--5--------------------3---3---5-5-5--|

|----5---5---4---8---9---9------------5---5---7---7---9---9---9---9--|
|----------------------------7---7-----------------------------------|
|--3---3---2---6---7---7------------3---3---5---5---7---7---7---7----|
|--------------------------5---5-------------------------------------|

|----5---5----7---7----9---9----------5---5---7---7----------------|
|-----------------------------7--7--------------------5---5--------|
|--3---3----5---5----7---7----------3---3---5---5------------------|
|---------------------------5--5--------------------3---3---5-5-5--|

|----5---5---4---8---9---9------------5---5---7---7-------------------|
|----------------------------7---7------------------------------------|
|--3---3---2---6---7---7------------3---3---5---5---7(x3) 7/10-7-5-7--|
|--------------------------5---5--------------------------------------|



Bridge:


|----------------------------------|
|----------------------------------|
|----------3--3-3------------------|
|--1--1-1----------3--3-3--3--3-3--|

|-------------------------------------|
|-------------------------------------|
|----------3--3-3-------------10(x6)--|
|--1--1-1----------3--3-3-3/9---------|

|------------------------------------|
|------------------------------------|
|---------3(x8?)-5(x4?)-2-3-2-3-2-2--|
|--1(x8?)----------------------------|


Chorus:

[Pause]


|------------------------------|
|------------------------------|
|--3(x4)-5(x4)\----------------|
|----------------0(x4)-3/10\3--|


|----5---5----7---7----9---9----------5---5---7---7----------------|
|-----------------------------7--7--------------------5---5--------|
|--3---3----5---5----7---7----------3---3---5---5------------------|
|---------------------------5--5--------------------3---3---5-5-5--|

|----5---5---4---8---9---9------------5---------7---7-------------------|
|----------------------------7---7--------------------------------------|
|--3---3---2---6---7---7------------3---3-2-3-5---5---7(x3) 7/10-7-5-7--|
|--------------------------5---5----------------------------------------|

|----5---5----7---7----9---9----------5---5---7---7----------------|
|-----------------------------7--7--------------------5---5--------|
|--3---3----5---5----7---7----------3---3---5---5------------------|
|---------------------------5--5--------------------3---3---5-5-5--|

|----5---5---4---8---9---9------------5---5---7---7---9---9---9---9------------------------------|
|----------------------------7---7---------------------------------------------------------------|
|--3---3---2---6---7---7------------3---3---5---5---7---7---7---7---7/10-7-5-7--3-5\-------10\1--|
|--------------------------5---5-----------------------------------------------------0(x4)-------|


Outro:

|----5---5----7---7----9---9----------5---5---7---7----------------|
|-----------------------------7--7--------------------5---5--------|
|--3---3----5---5----7---7----------3---3---5---5------------------|
|---------------------------5--5--------------------3---3---5-5-5--|

|----5---5---4---8---9---9------------5---5---7---7-------------------|
|----------------------------7---7------------------------------------|
|--3---3---2---6---7---7------------3---3---5---5---7(x3) 7/10-7-5-7--|
|--------------------------5---5--------------------------------------|

|----5---5----7---7----9---9----------5---5---7---7----------------|
|-----------------------------7--7--------------------5---5--------|
|--3---3----5---5----7---7----------3---3---5---5------------------|
|---------------------------5--5--------------------3---3---5-5-5--|

|----5---5---4---8---9---9------------5---5---7---7--------------------------------|
|----------------------------7---7-------------------------------------------------|
|--3---3---2---6---7---7------------3---3---5---5---7(x3) 7/10-7-5-7--3--5\-----3--|
|--------------------------5---5---------------------------------------------0-----|

 

-mikan
Advertisements

Leave a Reply

Fill in your details below or click an icon to log in:

WordPress.com Logo

You are commenting using your WordPress.com account. Log Out /  Change )

Google+ photo

You are commenting using your Google+ account. Log Out /  Change )

Twitter picture

You are commenting using your Twitter account. Log Out /  Change )

Facebook photo

You are commenting using your Facebook account. Log Out /  Change )

w

Connecting to %s

%d bloggers like this: