mikanhannille

My idle plot on a vague anxiety

Secret Base – SCANDAL cover Bass tab

Secret Base - Scandal Cover

[COPY & PASTE TO NOTEPAD]
Verse I:

|-----------------------------------------------------------------------------------------------------|
|----------------------------------------------------------------------------------------4/6-4--------|
|------------------------------------------------------------4-4/6-4/6-4-2-1/2-4-4-4---4-------4/6-4--|
|--4/7-6-9-11-9-11-9-7-7h9-9-9-11-9h11-11-11-9-7-7h9-9-9\2-2-------------------------2----------------|

|------------------------------------------------------|
|-----------------------------------------4/6-4--------|
|--2-2-4-4-4---4-4/6-4/6-4--2-2h4-4-4---4-------4/6-4--|
|------------2------------------------2----------------|

Chorus:

|-------------------------------|
|----4-------6-----8-------6----|
|--2---2-4-4---4-6---6-4-4---4--|
|-------------------------------|

|-------------------------------|
|----4-------6-----8-------8----|
|--2---2-4-4---4-6---6-6-6---6--|
|-------------------------------|

|-------------------------------|
|----4-------6-----8-------6----|
|--2---2-4-4---4-6---6-4-4---4--|
|-------------------------------|

|------------------------------------------------|
|----4-------6--------------------------2/4------|
|--2---2-4-4---4---4-----4--2-4-4-4---4-----4\1--|
|----------------2---2-2------------2------------|

Verse II:

|-------------------------------------------------|
|------------------------------------4/6-4--------|
|--2-4-4-4---4-4/6-4/6-4-2-4-4-4---4-------4/6-4--|
|----------2---------------------2----------------|

|-----------------------------------------------------|
|----------------------------------------4/6-4--------|
|--2-2/4-4-4---4-4/6-4/6-4-2-2/4-4-4---4-------4/6-4--|
|------------2-----------------------2----------------|

Chorus:

|-------------------------------|
|----4-------6-----8-------6----|
|--2---2-4-4---4-6---6-4-4---4--|
|-------------------------------|

|-------------------------------|
|----4-------6-----8------------|
|--2---2-4-4---4-6---6-6-6-6-6--|
|-------------------------------|

|-------------------|
|----4-------6------|
|--2---2-4-4---4----|
|----------------2--|

Bridge:

|----------------------------------------------------|
|--------------4/6-4--------------------4/6-4--------|
|--7-6-4-2---4-------4/6-4--2-1/4-4---4-------4/6-4--|
|----------2------------------------2----------------|

|-------------------------------------------------------------|
|------------------------------------------------------4/6-4--|
|--7-6-4-2---1-1/4-4-2-2-4-4-6-6-7-7\2-2-2-4-4----------------|
|----------2-----------------------------------2--2-2---------|

Chorus:

|-------------------------------|
|----4-------6-----8-------6----|
|--2---2-4-4---4-6---6-4-4---4--|
|-------------------------------|

|-------------------------------|
|----4-------6-----8-------8----|
|--2---2-4-4---4-6---6-6-6---6--|
|-------------------------------|

|-------------------------------|
|----4-------6-----8-------6----|
|--2---2-4-4---4-6---6-4-4---4--|
|-------------------------------|

|-----------------------------------------------------------|
|----4-------6----------------------------11-----8-----6----|
|--2---2-4-4---4-6-8-8-9-9-11\5--[PAUSE]-----9-6---4-4---4--|
|-----------------------------------------------------------|

|-------------------------------|
|----4-------6-----8-------8----|
|--2---2-4-4---4-6---6-6-6---6--|
|-------------------------------|

|-------------------------------|
|----4-------6-----8-------6----|
|--2---2-4-4---4-6---6-4-4---4--|
|-------------------------------|

|--------------------------------------------------------------|
|----4-------6--------------------------2/4--------------------|
|--2---2-4-4---4---4-----4--2-4-4-4---4-----4\1--2-4-4------9--|
|----------------2---2-2------------2------------------2-/8----|

Outro:

|-------------------------------|
|----4-------6-----8-------6----|
|--2---2-4-4---4-6---6-4-4---4--|
|-------------------------------|

|--------------------------------|
|----4-------6-------------------|
|--2---2-4-4---4-6-8-8-9-9-11-11-|
|--------------------------------|

|-------------------------------|
|----4-------6-----8-------6----|
|--2---2-4-4---4-6---6-4-4---4--|
|-------------------------------|

|------------------------------------------|
|----4-------6--------------------------9--|
|--2---2-4-4---4-6-8-8-9-9-11-11--2-2/8----|
|------------------------------------------|

-mikan
Advertisements

One response to “Secret Base – SCANDAL cover Bass tab

  1. Thijs Brouwers July 2, 2011 at 6:01 pm

    thnx… arigatou

Leave a Reply

Fill in your details below or click an icon to log in:

WordPress.com Logo

You are commenting using your WordPress.com account. Log Out /  Change )

Google+ photo

You are commenting using your Google+ account. Log Out /  Change )

Twitter picture

You are commenting using your Twitter account. Log Out /  Change )

Facebook photo

You are commenting using your Facebook account. Log Out /  Change )

w

Connecting to %s

%d bloggers like this: