mikanhannille

My idle plot on a vague anxiety

Shoujo M- SCANDAL bass tab

[COPY & PASTE TO NOTEPAD FOR BETTER VIEW]

Intro:

|------------------------------------4-4--|
|---------5-5-3-3------------5-5-3-3------|
|-----------------5-5---------------------|
|--3(x5)---------------3(x5)--------------|

|--------------------------------------|
|---------5-5-3-3----------------------|
|--3(x5)----------5-2-3-2-3-2-3-5-3-2--|
|--------------------------------------|

|------------------------------------4-4--|
|---------5-5-3-3------------5-5-3-3------|
|-----------------5-5---------------------|
|--3(x5)---------------3(x5)--------------|

|----------------------------------|
|---------5-5-3-3------------------|
|--3(x5)----------5-2-3-2-3-2-3-5--|
|----------------------------------|

|------------------------------------4-4--|
|---------5-5-3-3------------5-5-3-3------|
|-----------------5-5---------------------|
|--3(x5)---------------3(x5)--------------|

|--------------------------------------|
|---------5-5-3-3----------------------|
|--3(x5)----------5-2-3-2-3-2-3-5-3-2--|
|--------------------------------------|



Verse I:

|-------------------------------4-4------|
|------5-5-3-3----------5-5-3-3----------| x2
|--------------5-5-----------------------|
|--3-3--------------3-3------------------|

|------------------------------------|
|------------------------------------|
|------5-5-3-3----------5-5-3-3------|
|--------------5-5--------------5-5--|
|--3-3--------------3-3--------------|


Verse II:


|-------------------------------4-4------|
|------5-5-3-3----------5-5-3-3----------| x2
|--------------5-5-----------------------|
|--3-3--------------3-3------------------|

|------------------------------------|
|------------------------------------|
|------5-5-3-3----------5-5-3-3------|
|--------------5-5--------------5-5--|
|--3-3--------------3-3--------------|


Chorus:

|-------------------------------4-4------|
|------5-5-3-3----------5-5-3-3----------|
|--------------5-5-----------------------|
|--3-3--------------3-3------------------|

|------------------------------------|
|------5-5-3-3----------5-5-3-3-4-4--|
|--------------5-5-------------------|
|--3-3--------------3-3--------------|

|-------------------------------4-4------|
|------5-5-3-3----------5-5-3-3----------|
|--------------5-5-----------------------|
|--3-3--------------3-3------------------|

|--------------------------------|
|------5-5-3-3----------5-5------|
|--------------5-5---------------|
|--3-3--------------3-3-----3-2--|

|---------------------------------------------|
|---------------------------------------------|
|--7(x6)-5(x5)-3(x5)-------------7(x7)-8(x4)--|
|--------------------3(x4)-2(x4)--------------|

[Pause]

Intro:

|------------------------------------4-4--|
|---------5-5-3-3------------5-5-3-3------|
|-----------------5-5---------------------|
|--3(x5)---------------3(x5)--------------|

|--------------------------------------|
|---------5-5-3-3----------------------|
|--3(x5)----------5-2-3-2-3-2-3-5-3-2--|
|--------------------------------------|


Verse III:

[Pause]



Chorus:

|-------------------------------4-4------|
|------5-5-3-3----------5-5-3-3----------|
|--------------5-5-----------------------|
|--3-3--------------3-3------------------|

|------------------------------------|
|------5-5-3-3----------5-5-3-3-4-4--|
|--------------5-5-------------------|
|--3-3--------------3-3--------------|

|-------------------------------4-4------|
|------5-5-3-3----------5-5-3-3----------|
|--------------5-5-----------------------|
|--3-3--------------3-3------------------|

|--------------------------------|
|------5-5-3-3----------5-5------|
|--------------5-5---------------|
|--3-3--------------3-3-----3-2--|

|---------------------------------------------|
|---------------------------------------------|
|--7(x6)-5(x5)-3(x5)-------------7(x7)-8(x4)--|
|--------------------3(x4)-2(x4)--------------|


Guitar Solo:

|-------------------------------4-4------|
|------5-5-3-3----------5-5-3-3----------|
|--------------5-5-----------------------|
|--3-3--------------3-3------------------|

|------------------------------------|
|------5-5-3-3----------5-5-3-3-4-4--|
|--------------5-5-------------------|
|--3-3--------------3-3--------------|

|-------------------------------4-4------|
|------5-5-3-3----------5-5-3-3----------|
|--------------5-5-----------------------|
|--3-3--------------3-3------------------|

|------------------------------------|
|------5-5-3-3----------5-5-3-3-4-4--|
|--------------5-5-------------------|
|--3-3--------------3-3--------------|



Bridge:

|----------------------------7--7--7--7--7--7--7--7--|
|----------------------------------------------------|
|--10-8-6-5--10(x7)-8(x7)--5--5--5--5--5--5--5--5----|
|----------------------------------------------------|



Chorus:

|-------------------------------4-4------|
|------5-5-3-3----------5-5-3-3----------|
|--------------5-5-----------------------|
|--3-3--------------3-3------------------|

|------------------------------------|
|------5-5-3-3----------5-5-3-3-4-4--|
|--------------5-5-------------------|
|--3-3--------------3-3--------------|

|-------------------------------4-4------|
|------5-5-3-3----------5-5-3-3----------|
|--------------5-5-----------------------|
|--3-3--------------3-3------------------|

|--------------------------------|
|------5-5-3-3----------5-5------|
|--------------5-5---------------|
|--3-3--------------3-3-----3-2--|

|---------------------------------------------|
|---------------------------------------------|
|--7(x6)-5(x5)-3(x5)-------------7(x7)-8(x8)--|
|--------------------3(x4)-2(x4)--------------|


Outro:

|-------------------------------4-4------|
|------5-5-3-3----------5-5-3-3----------|
|--------------5-5-----------------------|
|--3-3--------------3-3------------------|

|------------------------------------|
|------5-5-3-3----------5-5-3-3-4-4--|
|--------------5-5-------------------|
|--3-3--------------3-3--------------|

|-------------------------------4-4------|
|------5-5-3-3----------5-5-3-3----------|
|--------------5-5-----------------------|
|--3-3--------------3-3------------------|

|------------------------------------|
|------5-5-3-3----------5-5-3-3-4-4--|
|--------------5-5-------------------|
|--3-3--------------3-3--------------|

|-------------------------------4-4------|
|------5-5-3-3----------5-5-3-3----------|
|--------------5-5-----------------------|
|--3-3--------------3-3------------------|

|------------------------------------|
|------5-5-3-3----------5-5-3-3-4-4--|
|--------------5-5-------------------|
|--3-3--------------3-3--------------|

|-------------------------------4-4------|
|------5-5-3-3----------5-5-3-3----------|
|--------------5-5-----------------------|
|--3-3--------------3-3------------------|

|------------------------------------|
|------5-5-3-3----------5-5-3-3-4-4--|
|--------------5-5-------------------|
|--3-3--------------3-3--------------|

 

-mikan
Advertisements

Leave a Reply

Fill in your details below or click an icon to log in:

WordPress.com Logo

You are commenting using your WordPress.com account. Log Out /  Change )

Google+ photo

You are commenting using your Google+ account. Log Out /  Change )

Twitter picture

You are commenting using your Twitter account. Log Out /  Change )

Facebook photo

You are commenting using your Facebook account. Log Out /  Change )

Connecting to %s

%d bloggers like this: