mikanhannille

My idle plot on a vague anxiety

Sinky York – SCANDAL cover bass tab

SINKY - YORK

/ - slide up
\ - slide down
h - hammer
p - pull-off
t - tap
x - mute

Intro:
|--------6-7-9/12----9-16-17--17-17-19--12------------|
|--10-10----------12-----------------------12---------|
|-----------------------------------------------------|
|---------------------------------------------0-0-12--|

|-------------------------------------------|
|-------------------------------------------|
|--3-3-x-x-3-5-5-x-x-5-----------5/7-7-5-5--|
|----------------------3-3-x-x-3------------|

|--------------------------------------|
|--------------------------------------|
|--3-3-x-x3-5-5-x-x-5---------7-7-5-5--|
|---------------------3-3-2-2----------|

|-------------------------------------------|
|-------------------------------------------|
|--3-3-x-x-3-5-5-x-x-5-----------5/7-7-5-5--|
|----------------------3-3-x-x-3------------|

|-------------------------------------|
|-------------------------------------|
|-3-3-x-x3-5-5-x-x-5---------7-7-5-5--|
|--------------------3-3-2-2----------|

|-------------------------------------------------|
|----------------------5-------5-------5-------5--|
|--3-3-x-x-3-5-5-x-x-5---7-5-7---7-5-7---7-5-7----|
|-------------------------------------------------|

Verse I:
|---------------------------------|
|---------------------------------|
|--2(x6)-5/7-7(x6)-5-3(x6)-5(x6)--|
|---------------------------------|

|----------------------------------------------------|
|-----------------------------------12-11h12p11------|
|--2(x6)-5/7-7(x6)-5-3(x6)-5(x3)/12-------------t12--|
|----------------------------------------------------|

Pre-chorus:
|---------------------------10/12-11-----|
|-------10------10-------------------12--|
|--3/10----3/10--------10--7-------------|
|-----------------3/10-------------------|

|----------------14------------------------|
|-------10----------12---------------------|
|--3/10----5/12---------6/14-----8-8-10-5--|
|----------------------------14\-----------|

Chorus:
|-------------------------------------------|
|-------------------------------------------|
|--3-3-x-x-3-5-5-x-x-5-2-2-x-x-2-5/7-7-5-5--|
|-------------------------------------------|

|--------------------------------------|
|--------------------------------------|
|--3-3-x-x3-5-5-x-x-5---------7-7-5-5--|
|---------------------3-3-2-2----------|

|-------------------------------------------|
|-------------------------------------------|
|--3-3-x-x-3-5-5-x-x-5-6-6-x-x-6-7-7-x-x-7--|
|-------------------------------------------|

|-------------------------------|
|--------------5-4--------------|
|--3-x-3-5-x-5-----7-5-7-5------|
|--------------------------7-5--|

|-------------------------------------------------------|
|----------------------5-------5-------5-------5--------|
|--3-3-x-x-3-5-5-x-x-5---7-5-7---7-5-7---7-5-7---7-5-7--|
|-------------------------------------------------------|

Verse II:
|-----------------------------------------------------------|
|----------------------12/14---14---------------------------| [Pause]
|--2-x-2-1/7-7-x-7\-------14----------3/-3/-3/-3/--5-5-5--|
|----------------------------------14\----------------------|

|----------------------------------------------------|
|-----------------------------------12-11h12p11------|
|--2(x6)-5/7-7(x6)-5-3(x6)-5(x3)/12-------------t12--|
|----------------------------------------------------|

Pre-chorus:
|---------------------------10/12-11-----|
|-------10------10-------------------12--|
|--3/10----3/10--------10--7-------------|
|-----------------3/10-------------------|

|----------------14------------------------|
|-------10----------12---------------------|
|--3/10----5/12---------6/14-----8-8-10-5--|
|----------------------------14\-----------|

Chorus:
|-------------------------------------------|
|-------------------------------------------|
|--3-3-x-x-3-5-5-x-x-5-2-2-x-x-2-5/7-7-5-5--|
|-------------------------------------------|

|--------------------------------------|
|--------------------------------------|
|--3-3-x-x3-5-5-x-x-5---------7-7-5-5--|
|---------------------3-3-2-2----------|

|-------------------------------------------|
|-------------------------------------------|
|--3-3-x-x-3-5-5-x-x-5-6-6-x-x-6-7-7-x-x-7--|
|-------------------------------------------|

|-------------------------------|
|--------------5-4--------------|
|--3-x-3-5-x-5-----7-5-7-5------|
|--------------------------7-5--|

|------------------|
|------------------|
|-3--3/5------7/8--|
|--3-----3/5-------|

[Pause]

|-----------------------------------|
|-----------------------------------|
|--3-3-5-5---------3-3-5-5----------|
|----------3-3-0-0---------3-3-0-0--|

Guitar Solo:

|-------------------------------------------|
|-------------------------------------------|
|--3-3-x-x-3-5-5-x-x-5-----------5/7-7-5-5--|
|----------------------3-3-x-x-3------------|

|--------------------------------------|
|--------------------------------------|
|--3-3-x-x3-5-5-x-x-5---------7-7-5-5--|
|---------------------3-3-2-2----------|

|-------------------------------------------|
|-------------------------------------------|
|--3-3-x-x-3-5-5-x-x-5-----------5/7-7-5-5--|
|----------------------3-3-x-x-3------------|

|-------------------------------------|
|-------------------------------------|
|-3-3-x-x3-5-5-x-x-5---------7-7-5-5--|
|--------------------3-3-2-2----------|

|-------------------------------------------------------|
|----------------------5-------5-------5-------5--------|
|--3-3-x-x-3-5-5-x-x-5---7-5-7---7-5-7---7-5-7---7-5-7--|
|-------------------------------------------------------|

Verse I?
|---------------------------------|
|---------------------------------|
|--2(x6)-3/5-7(x6)-5-3(x6)-5(x6)--|
|---------------------------------|

|----------------------------------------------------|
|-----------------------------------12-11h12p11------|
|--2(x6)-3/5-7(x6)-5-3(x6)-5(x3)/12-------------t12--|
|----------------------------------------------------|

Pre-chorus:
|---------------------------10/12-11-----|
|-------10------10-------------------12--|
|--3/10----3/10--------10--7-------------|
|-----------------3/10-------------------|

|----------------14------------------------|
|-------10----------12---------------------|
|--3/10----5/12---------6/14-----8-8-10-5--|
|----------------------------14\-----------|

Chorus I:
|---------------------------------------------------|
|---------------------------------------------------|
|--3/0-[PAUSE]-1/3-3-3-3-5-5-5-5---------5/7-7-5-5--|
|--------------------------------3-3-2-2------------|

|-------------------------------------------|
|-------------------------------------------|
|--3-3-x-x-3-5-5-x-x-5-2-2-x-x-2-5/7-7-5-5--|
|-------------------------------------------|

|-------------------------------|
|--------------5-4--------------|
|--3-x-3-5-x-5-----7-5-7-5------|
|--------------------------7-5--|

|--------------------------------|
|---------------5-------5--------|
|--3-x-3-5-x-5----7-5-7---7-5-7--|
|--------------------------------|

Chorus II:
|-------------------------------------------|
|-------------------------------------------|
|--3-3-x-x-3-5-5-x-x-5-2-2-x-x-2-5/7-7-5-5--|
|-------------------------------------------|

|--------------------------------------|
|--------------------------------------|
|--3-3-x-x3-5-5-x-x-5---------7-7-5-5--|
|---------------------3-3-2-2----------|

|-------------------------------------------|
|-------------------------------------------|
|--3-3-x-x-3-5-5-x-x-5-6-6-x-x-6-7-7-x-x-7--|
|-------------------------------------------|

|-------------------------------|
|--------------5-4--------------|
|--3-x-3-5-x-5-----7-5-7-5------|
|--------------------------7-5--|

|-----------------|
|-------------12--|
|--0-x-0-5/12-----|
|-----------------|

Outro:
|-------------------------------------------|
|-------------------------------------------|
|--3-3-x-x-3-5-5-x-x-5-----------5/7-7-5-5--|
|----------------------3-3-x-x-3------------|

|--------------------------------------|
|--------------------------------------|
|--3-3-x-x3-5-5-x-x-5---------7-7-5-5--|
|---------------------3-3-2-2----------|

|-------------------------------------------|
|-------------------------------------------|
|--3-3-x-x-3-5-5-x-x-5-----------5/7-7-5-5--|
|----------------------3-3-x-x-3------------|

|-------------------------------------|
|-------------------------------------|
|-3-3-x-x3-5-5-x-x-5---------7-7-5-5--|
|--------------------3-3-2-2----------|

|---------------------------------------------------------|
|----------------------5-------5-------5-------7/9-8-7-5--|
|--3-3-x-x-3-5-5-x-x-5---7-5-7---7-5-7---7-5-7------------|
|---------------------------------------------------------|

|----------------------------------------|
|--5-------5-------5-------7/9-8-7-5-----|
|----7-5-7---7-5-7---7-5-7---------------|
|-------------------------------------3--|

-mikan
Advertisements

Leave a Reply

Fill in your details below or click an icon to log in:

WordPress.com Logo

You are commenting using your WordPress.com account. Log Out /  Change )

Google+ photo

You are commenting using your Google+ account. Log Out /  Change )

Twitter picture

You are commenting using your Twitter account. Log Out /  Change )

Facebook photo

You are commenting using your Facebook account. Log Out /  Change )

Connecting to %s

%d bloggers like this: