mikanhannille

My idle plot on a vague anxiety

Work in progress [YUI – Hello]

I'm posting it here because I'm a bit careless and I tend to delete files on a heart-beat. Just to be safe.
Intro:
---------------------------------------------5/7--
----6-6---6---------8----6-6---6--------6---------
----------------6-8-----------------6-8---8-------
--4-----4-----6--------4-----4----6---------------


Verse I
----------------------------------------------5/7--
----6-6---6----8---8--------6-6---6-------6--------
--------------------------------------6-8---8------
--4-----4----6---6----6-4-4-----4---6--------------

----------------------------------------------5/7--
----6-6---6----8---8--------6-6---6-------6--------
--------------------------------------6-8---8------
--4-----4----6---6----6-4-4-----4---6--------------


Pre Chorus
---------------------------------------------------
---------------------------------------------------
-------------------------------3h5-6-x-6--------6--
--8--8-8--8-6--6-6--1h3-4-x-4------------x-6-6-----

---------------------------------------------------------------3-3--
------------------8--------------------------------3-------3-3------
---------------------------1-3-----1-3-----1-3-2/3---3-1-1----------
--8-8-8-6/8-7-6-6---6--1-1-----1-1-----1-1--------------------------
Advertisements

Leave a Reply

Fill in your details below or click an icon to log in:

WordPress.com Logo

You are commenting using your WordPress.com account. Log Out /  Change )

Google+ photo

You are commenting using your Google+ account. Log Out /  Change )

Twitter picture

You are commenting using your Twitter account. Log Out /  Change )

Facebook photo

You are commenting using your Facebook account. Log Out /  Change )

Connecting to %s

%d bloggers like this: