mikanhannille

My idle plot on a vague anxiety

Naihi Shinsho 内秘心書 – One Ok Rock [Bass tab]

Naihi Shinsho - One Ok Rock

/ - slide up
\ - slide down
x - mute
r - rest

Intro:
|-----------------------------------------|
|-----------------------------------------|
|--3(x5)-3/5-5(x5)-7(x4)-5h7-7-7-5h7-5----|
|--------------------------------------r--| X4


Verse:
|-----------------------|
|-----------------------|
|--3(X13?)-3/7-7(x10?)--|
|-----------------------| x4


Intro:
|-----------------------------------------|
|-----------------------------------------|
|--3(x5)-3/5-5(x5)-7(x4)-5h7-7-7-5h7-5----|
|--------------------------------------r--| X2


Pre-chorus:
|---------------------------------|
|---------------------------------|
|----5/7-7-x-5-5-x-3-3-3-x-5-5-5--|
|--0------------------------------|

|----------------------------------------|
|----------------------------------------|
|----5/7-7-x-5-5-x-3(x8)--5-5--5-5--5-5--|
|--0-------------------------------------|


Chorus:
|-----------------------------------------|
|-----------------------------------------|
|--3(x5)-3/5-5(x5)-7(x4)-5h7-7-7-5h7-5----|
|--------------------------------------r--|

|--------------------------------------------|
|--------------------------------------------|
|--3(x5)-3/5-5(x5)-7(x4?)-7/10-10-9-9-7-7-5--|
|--------------------------------------------|

|-----------------------------------------|
|-----------------------------------------|
|--3(x5)-3/5-5(x5)-7(x4)-5h7-7-7-5h7-5----|
|--------------------------------------r--|

|-------------------------------------|
|-------------------------------------|
|--3(x5)-3/5-5(x5)-7(x4)-5h7-7-7-7-7--|
|-------------------------------------|


Verse:
|-----------------------|
|-----------------------|
|--3(X13?)-3/7-7(x10?)--|
|-----------------------|

|------------------------------|
|------------------------------|
|--3(X13?)-3/7-7(x4?)-[Pause]--|
|------------------------------|

|-----------------------|
|-----------------------|
|--3(X13?)-3/7-7(x10?)--|
|-----------------------| x2


Pre-chorus:
|---------------------------------|
|---------------------------------|
|----5/7-7-x-5-5-x-3-3-3-x-5-5-5--|
|--0------------------------------|

|----------------------------------------|
|----------------------------------------|
|----5/7-7-x-5-5-x-3(x8)--5-5--5-5--5-5--|
|--0-------------------------------------|


Chorus:
|-----------------------------------------|
|-----------------------------------------|
|--3(x5)-3/5-5(x5)-7(x4)-5h7-7-7-5h7-5----|
|--------------------------------------r--|

|--------------------------------------------|
|--------------------------------------------|
|--3(x5)-3/5-5(x5)-7(x4?)-7/10-10-9-9-7-7-5--|
|--------------------------------------------|

|-----------------------------------------|
|-----------------------------------------|
|--3(x5)-3/5-5(x5)-7(x4)-5h7-7-7-5h7-5----|
|--------------------------------------r--|

|-------------------------------------|
|-------------------------------------|
|--3(x5)-3/5-5(x5)-7(x4)-5h7-7-7-7-7--|
|-------------------------------------|


"Solo" thingy:

|-----------------------------------------|
|-----------------------------------------|
|-----------------------------------------|
|--1/10\2--0-3h5-0-5h6-0-3h5-0-5h6-0-3h5--|

|---------------------------|
|---------------------------|
|---------------------------|
|--0-3h5-0-5h6-0-3h5-0-6-6--|

|---------------------------------|
|---------------------------------|
|---------------------------------|
|--0-3h5-0-5h6-0-3h5-0-5h6-0-3h5--|

|----------------------------|
|----------------------------|
|----------------------5-----|
|--0-3h5-0-5h6-0-3h5-0-------|

|---------------------------------|
|---------------------------------|
|---------------------------------|
|--0-3h5-0-5h6-0-3h5-0-5h6-0-3h5--|

|---------------------------|
|---------------------------|
|---------------------------|
|--0-3h5-0-5h6-0-3h5-0-6-6--|

|----------------------------|
|----------------------------|
|----------------------5-----|
|--0-3h5-0-5h6-0-3h5-0-------|

[PAUSE]

[Guitar Part]

2:52
|-------------------------------|
|-------------------------------|
|--------3(x4)-2(x6)-----7------|
|--3(x4)-------------3/7---7\2--|

|-----------------------|
|-----------------------|
|--------3(x4)--5(x13)--|
|--3(x4)----------------|


Chorus:
|-----------------------------------------|
|-----------------------------------------|
|--3(x5)-3/5-5(x5)-7(x4)-5h7-7-7-5h7-5----|
|--------------------------------------r--|

|--------------------------------------------|
|--------------------------------------------|
|--3(x5)-3/5-5(x5)-7(x4?)-7/10-10-9-9-7-7-5--|
|--------------------------------------------|

|-----------------------------------------|
|-----------------------------------------|
|--3(x5)-3/5-5(x5)-7(x4)-5h7-7-7-5h7-5----|
|--------------------------------------r--|

|-------------------------------------|
|-------------------------------------|
|--3(x5)-3/5-5(x5)-7(x4)-5h7-7-7-7-7--|
|-------------------------------------|


Outro:
|-----------------------------------------|
|-----------------------------------------|
|--3(x5)-3/5-5(x5)-7(x4)-5h7-5-5-5h7-5----|
|--------------------------------------r--| X3

|-------------------------------------|
|-------------------------------------|
|--3(x5)-3/5-5(x5)-7(x4)-5h7-7-7------|
|--------------------------------0-0--|
Advertisements

Leave a Reply

Fill in your details below or click an icon to log in:

WordPress.com Logo

You are commenting using your WordPress.com account. Log Out /  Change )

Google+ photo

You are commenting using your Google+ account. Log Out /  Change )

Twitter picture

You are commenting using your Twitter account. Log Out /  Change )

Facebook photo

You are commenting using your Facebook account. Log Out /  Change )

w

Connecting to %s

%d bloggers like this: